Do what you like

If you're searching for a special part of a song or a chord sequence, ask here. Include as much details as possible (e.g. time range, album).
Post Reply
ptahoteph
Posts: 5
Joined: Thu Aug 19, 2010 12:18 pm

Do what you like

Post by ptahoteph » Fri Aug 20, 2010 7:58 am

I can't find enywhere the solo for the song "Do what you like" by Blind Faith....so if somebody knows the solo please post it......tnx...:)

User avatar
12bar
Site Admin
Posts: 2847
Joined: Thu Mar 25, 2010 12:05 pm

Re: Do what you like

Post by 12bar » Fri Aug 20, 2010 8:04 am

...include the version (which album?) and a specific time range.
:wink:

User avatar
12bar
Site Admin
Posts: 2847
Joined: Thu Mar 25, 2010 12:05 pm

Re: Do what you like

Post by 12bar » Fri Aug 20, 2010 8:09 am

Found this at http://www.winwoodfans.com/chords/do-what-you-like.htm:

Do What You Like

From the Album "Blind Faith", released 1969 on Island Records.
Words and Music by Peter Baker.
Key of C-minor. Time signature 5/4.

Cm Gm7 Cm Gm7 Cm Gm7 Cm Gm7
Do right, use your head, everybody must be fed

Cm Gm7 Cm Gm7 Cm Gm7 Cm Gm7
Get together, break your bread, yes, together, that's what I said

A Bb A Bb
Do what you like

Cm Gm7
Don't fight

cruisemates
Posts: 99
Joined: Fri Apr 09, 2010 6:31 pm

Re: Do what you like

Post by cruisemates » Sat Aug 21, 2010 11:38 pm

I dont remember what the solo sounded like - but what a cool song. It is in 5/4 meter. Some of the Blind Faith songs were the best.

ptahoteph
Posts: 5
Joined: Thu Aug 19, 2010 12:18 pm

Re: Do what you like

Post by ptahoteph » Tue Aug 31, 2010 1:46 pm

Tnx to all of you....as I remeber Blind Faith only produced one album....the song is from that album....it is a studio version.....anyway....i'll try do it myself.....:)

User avatar
12bar
Site Admin
Posts: 2847
Joined: Thu Mar 25, 2010 12:05 pm

Re: Do what you like

Post by 12bar » Tue Aug 31, 2010 1:59 pm

There are several boots with live version out there... :wink:
So you mean the studio one - what time range?

User avatar
Pena
Posts: 198
Joined: Mon Mar 29, 2010 5:37 pm

Re: Do what you like

Post by Pena » Tue Aug 31, 2010 3:17 pm

Do you mean this?
It's from the DeLuxe edition.
Mod edit : Sorry this is a copyrighted song, we don't want to get Gerd in to trouble, don't we ? :D /Hans

Pena
"The blues is a low down achein' chill" Robert Johnson

User avatar
12bar
Site Admin
Posts: 2847
Joined: Thu Mar 25, 2010 12:05 pm

Re: Do what you like

Post by 12bar » Tue Aug 31, 2010 7:31 pm

Plse remove it - copyright alarm! :icon_whoknows:

You mean starting at around 3:16 min? :think:

Code: Select all

I--------------------------------------------------------------5---------------------I
I12h13p12----------------------------------------------------5-----------------------I
I----------9-14p12p9--9-11-12-11--9-10-7-9-----------5-7b(9)-----(9)rb7-5-7---5------I
I------------------------------------------10-7--5-7------------------------7---7----I
I------------------------------------------------------------------------------------I
I------------------------------------------------------------------------------------I
3:16

User avatar
Pena
Posts: 198
Joined: Mon Mar 29, 2010 5:37 pm

Re: Do what you like

Post by Pena » Wed Sep 01, 2010 7:12 am

Sry HBL, my bad :sad: . Took a risk on thin ice... Got myself wet :cry: and now I have flu :big_smile:
"The blues is a low down achein' chill" Robert Johnson

cruisemates
Posts: 99
Joined: Fri Apr 09, 2010 6:31 pm

Re: Do what you like

Post by cruisemates » Thu Sep 02, 2010 7:59 pm

http://www.youtube.com/watch?v=pZfCMg93SpM

here is a link to the song - is there a certain section of the solo (min:sec) that you want to know, because I can't do it all but I can do part of it. probably.

cruisemates
Posts: 99
Joined: Fri Apr 09, 2010 6:31 pm

Re: Do what you like

Post by cruisemates » Thu Sep 02, 2010 8:17 pm

I hear it based on A-minor with these notes being used a lot:

1 ---------7---8--10--12-10--8--10--8^7-----------------------------------------------------------------------
1 --10-----------------------------------------10----8--10--8---------------------------------------------------
1 -----------------------------------------------------------------9----8-7-5------------------------------
1 -------------------------------------------------------------------------------7---5---7---5-4--------------
1 ---------------------------------------------------------------------------------------------------7---
1 ---------------------------------------------------------------------------------------------

1 ------------------------------------------8--10--12--10--8--7--8--8--7-----------------------------------
1 ------------------------------------------------------------------------------10----8---10---8-----
1 ----------------------------------------------------------------------------------------------------9
1 ---------------------------------------------------------------------------------------------
1 --5--7---5----3-2-------------------------------------------------------------------------------
1 --------------------------5----3----5-----------------------------------------------------------

basic scale

1 -------------------------------------------------------5--7--8--10--12--15--17--------------------------
1 ----------------------------------------------5---8--------------------------------------------
1 ----------------------------------4--5--7-------------------------------------------------------
1 -------------------------5---7-----------------------------------------------------------------
1 ---------2---3--5--7-----------------------------------------------------------------------------
1 ----5-----------------------------------------------------------------------------------------

He likes to bend C up to D a lot (kind of an unusual blues bend)

ptahoteph
Posts: 5
Joined: Thu Aug 19, 2010 12:18 pm

Re: Do what you like

Post by ptahoteph » Mon Sep 06, 2010 10:13 am

Tnx ...it's a a great help....peace to all of you....:)

Post Reply